  0
SECTION
  2
HEADER
  9
$ACADVER
  1
AC1004
  9
$INSBASE
 10
0.0
 20
0.0
  9
$EXTMIN
 10
-99.26
 20
-103.425
  9
$EXTMAX
 10
3050.74
 20
4351.575
  9
$LIMMIN
 10
-99.26
 20
-103.425
  9
$LIMMAX
 10
3050.74
 20
4351.575
  9
$VIEWCTR
 10
6.0
 20
4.5
  9
$VIEWSIZE
 40
9.0
  9
$SNAPMODE
 70
     0
  9
$SNAPUNIT
 10
25.0
 20
25.0
  9
$SNAPBASE
 10
0.0
 20
0.0
  9
$SNAPANG
 50
0.0
  9
$SNAPSTYLE
 70
     0
  9
$SNAPISOPAIR
 70
     0
  9
$GRIDMODE
 70
     1
  9
$GRIDUNIT
 10
100.0
 20
100.0
  9
$ORTHOMODE
 70
     0
  9
$REGENMODE
 70
     1
  9
$FILLMODE
 70
     1
  9
$QTEXTMODE
 70
     0
  9
$DRAGMODE
 70
     2
  9
$LTSCALE
 40
1.0
  9
$OSMODE
 70
     1
  9
$ATTMODE
 70
     1
  9
$TEXTSIZE
 40
0.2
  9
$TRACEWID
 40
0.05
  9
$TEXTSTYLE
  7
STANDARD
  9
$CLAYER
  8
DATA
  9
$CELTYPE
  6
CONTINUOUS
  9
$CECOLOR
 62
     7
  9
$DIMSCALE
 40
1.0
  9
$DIMASZ
 40
0.18
  9
$DIMEXO
 40
0.0625
  9
$DIMDLI
 40
0.38
  9
$DIMRND
 40
0.0
  9
$DIMDLE
 40
0.0
  9
$DIMEXE
 40
0.18
  9
$DIMTP
 40
0.0
  9
$DIMTM
 40
0.0
  9
$DIMTXT
 40
0.18
  9
$DIMCEN
 40
0.09
  9
$DIMTSZ
 40
0.0
  9
$DIMTOL
 70
     0
  9
$DIMLIM
 70
     0
  9
$DIMTIH
 70
     1
  9
$DIMTOH
 70
     1
  9
$DIMSE1
 70
     0
  9
$DIMSE2
 70
     0
  9
$DIMTAD
 70
     0
  9
$DIMZIN
 70
     0
  9
$DIMBLK
  1

  9
$DIMASO
 70
     1
  9
$DIMSHO
 70
     1
  9
$DIMPOST
  1

  9
$DIMAPOST
  1

  9
$DIMALT
 70
     0
  9
$DIMALTD
 70
     2
  9
$DIMALTF
 40
25.4
  9
$DIMLFAC
 40
1.0
  9
$LUNITS
 70
     2
  9
$LUPREC
 70
     4
  9
$AXISMODE
 70
     0
  9
$AXISUNIT
 10
0.0
 20
0.0
  9
$SKETCHINC
 40
0.1
  9
$FILLETRAD
 40
5.0
  9
$AUNITS
 70
     0
  9
$AUPREC
 70
     0
  9
$MENU
  1
acad
  9
$ELEVATION
 40
0.0
  9
$THICKNESS
 40
0.0
  9
$VIEWDIR
 10
0.0
 20
0.0
 30
1.0
  9
$LIMCHECK
 70
     0
  9
$BLIPMODE
 70
     1
  9
$CHAMFERA
 40
0.0
  9
$CHAMFERB
 40
0.0
  9
$FASTZOOM
 70
     1
  9
$SKPOLY
 70
     0
  9
$TDCREATE
 40
0.0
  9
$TDUPDATE
 40
0.0
  9
$TDINDWG
 40
0.0
  9
$TDUSRTIMER
 40
0.0
  9
$USRTIMER
 70
     1
  9
$ANGBASE
 50
0.0
  9
$ANGDIR
 70
     0
  9
$PDMODE
 70
     0
  9
$PDSIZE
 40
0.0
  9
$PLINEWID
 40
0.0
  9
$COORDS
 70
     1
  9
$SPLFRAME
 70
     0
  9
$SPLINESEGS
 70
    10
  9
$ATTDIA
 70
     0
  9
$ATTREQ
 70
     1
  9
$USERI1
 70
     0
  9
$USERI2
 70
     0
  9
$USERI3
 70
     0
  9
$USERI4
 70
     0
  9
$USERI5
 70
     0
  9
$USERR1
 40
0.0
  9
$USERR2
 40
0.0
  9
$USERR3
 40
0.0
  9
$USERR4
 40
0.0
  9
$USERR5
 40
0.0
  0
ENDSEC
  0
SECTION
  2
TABLES
  0
TABLE
  2
LTYPE
 70
    11
  0
LTYPE
  2
CONTINUOUS
 70
     0
  3
Solid line
 72
    65
 73
     0
 40
0.0
  0
LTYPE
  2
DASHED
 70
     0
  3
__ __ __ __ __ __ __ __ __ __ __ __ __ __ __
 72
    65
 73
     2
 40
0.75
 49
0.5
 49
-0.25
  0
LTYPE
  2
HIDDEN
 70
     0
  3
_ _ _ _ _ _ _ _ _ _ _ _ _ _ _ _ _ _ _ _ _ _ 
 72
    65
 73
     2
 40
0.25
 49
0.125
 49
-0.125
  0
LTYPE
  2
CENTER
 70
     0
  3
____ _ ____ _ ____ _ ____ _ ____ _ ____ _ __
 72
    65
 73
     4
 40
2.0
 49
1.25
 49
-0.25
 49
0.25
 49
-0.25
  0
LTYPE
  2
PHANTOM
 70
     0
  3
_____ _ _ _____ _ _ _____ _ _ _____ _ _ ____
 72
    65
 73
     6
 40
2.5
 49
1.25
 49
-0.25
 49
0.25
 49
-0.25
 49
0.25
 49
-0.25
  0
LTYPE
  2
DOT
 70
     0
  3
............................................
 72
    65
 73
     2
 40
0.25
 49
0.0
 49
-0.25
  0
LTYPE
  2
DASHDOT
 70
     0
  3
__ . __ . __ . __ . __ . __ . __ . __ . __ .
 72
    65
 73
     4
 40
1.0
 49
0.5
 49
-0.25
 49
0.0
 49
-0.25
  0
LTYPE
  2
BORDER
 70
     0
  3
__ __ . __ __ . __ __ . __ __ . __ __ . __ _
 72
    65
 73
     6
 40
1.75
 49
0.5
 49
-0.25
 49
0.5
 49
-0.25
 49
0.0
 49
-0.25
  0
LTYPE
  2
DIVIDE
 70
     0
  3
__ . . __ . . __ . . __ . . __ . . __ . . __
 72
    65
 73
     6
 40
1.25
 49
0.5
 49
-0.25
 49
0.0
 49
-0.25
 49
0.0
 49
-0.25
  0
LTYPE
  2
DOTS
 70
     0
  3
close                                       
 72
    65
 73
     2
 40
0.1
 49
0.05
 49
-0.05
  0
LTYPE
  2
CLOSE
 70
     0
  3
                                            
 72
    65
 73
     0
 40
0.0
  0
ENDTAB
  0
TABLE
  2
LAYER
 70
     6
  0
LAYER
  2
0
 70
     0
 62
     7
  6
CONTINUOUS
  0
LAYER
  2
LAYER01
 70
     0
 62
     7
  6
CONTINUOUS
  0
LAYER
  2
DATA
 70
     0
 62
     7
  6
CONTINUOUS
  0
LAYER
  2
DIMENSIONS
 70
     0
 62
     7
  6
CONTINUOUS
  0
LAYER
  2
SPEC
 70
     0
 62
     7
  6
CONTINUOUS
  0
LAYER
  2
HIBINO-BASE
 70
     0
 62
     7
  6
CONTINUOUS
  0
ENDTAB
  0
TABLE
  2
STYLE
 70
     2
  0
STYLE
  2
STANDARD
 70
     0
 40
0.0
 41
1.0
 50
0.0
 71
     0
 42
0.2
  3
txt
  4

  0
STYLE
  2
TTF_DEFAULT
 70
     0
 40
0.0
 41
1.0
 50
0.0
 71
     0
 42
0.0
  3
txt
  4
BIGFONT
  0
ENDTAB
  0
TABLE
  2
VIEW
 70
     0
  0
ENDTAB
  0
ENDSEC
  0
SECTION
  2
BLOCKS
  0
ENDSEC
  0
SECTION
  2
ENTITIES
  0
LINE
  8
SPEC
  6
CONTINUOUS
 62
     7
 10
262.5
 20
3975.0
 11
2387.5
 21
3975.0
  0
LINE
  8
SPEC
  6
CONTINUOUS
 62
     7
 10
262.5
 20
3918.75
 11
2387.5
 21
3918.75
  0
LINE
  8
SPEC
  6
CONTINUOUS
 62
     7
 10
262.5
 20
3806.25
 11
2387.5
 21
3806.25
  0
TEXT
  8
SPEC
  6
CONTINUOUS
 62
     7
 10
853.125
 20
3759.375
 40
37.5
  1
マイク入力：-127.5dBu以下 (20Hz～20kHz bandwidth , 無負荷 , 150Ω)
  7
TTF_DEFAULT
  0
TEXT
  8
SPEC
  6
CONTINUOUS
 62
     7
 10
853.125
 20
3714.375
 40
37.5
  1
MIX出力：-80dBu (20Hz～20kHz bandwidth , 無負荷 , 16ch routed)
  7
TTF_DEFAULT
  0
TEXT
  8
SPEC
  6
CONTINUOUS
 62
     7
 10
853.125
 20
3669.375
 40
37.5
  1
AUX出力：-78dBu (20Hz～20kHz bandwidth , 無負荷 , 16ch routed)
  7
TTF_DEFAULT
  0
LINE
  8
SPEC
  6
CONTINUOUS
 62
     7
 10
262.5
 20
3637.5
 11
2387.5
 21
3637.5
  0
TEXT
  8
SPEC
  6
CONTINUOUS
 62
     7
 10
853.125
 20
3500.625
 40
37.5
  1
入力チャンネル　パンポット（アイソレーション）：90dB以上 (1kHz)
  7
TTF_DEFAULT
  0
TEXT
  8
SPEC
  6
CONTINUOUS
 62
     7
 10
853.125
 20
3590.625
 40
37.5
  1
入力チャンネル　ミュート：95dB以上 (1kHz)
  7
TTF_DEFAULT
  0
TEXT
  8
SPEC
  6
CONTINUOUS
 62
     7
 10
853.125
 20
3545.625
 40
37.5
  1
入力フェーダー　アッテネーション：80dB以上 (1kHz)
  7
TTF_DEFAULT
  0
TEXT
  8
SPEC
  6
CONTINUOUS
 62
     7
 10
853.125
 20
3455.625
 40
37.5
  1
入力チャンネル　ルーティング：95dB以上 (1kHz)
  7
TTF_DEFAULT
  0
TEXT
  8
SPEC
  6
CONTINUOUS
 62
     7
 10
853.125
 20
3410.625
 40
37.5
  1
入力チャンネル　AUX出力　アッテネーション：85dB以上 (1kHz)
  7
TTF_DEFAULT
  0
TEXT
  8
SPEC
  6
CONTINUOUS
 62
     7
 10
853.125
 20
3826.875
 40
37.5
  1
ライン入力→グループ又はミックス出力：0.02%以下 (+20dBu , 10kHz)
  7
TTF_DEFAULT
  0
TEXT
  8
SPEC
  6
CONTINUOUS
 62
     7
 10
853.125
 20
3871.875
 40
37.5
  1
ライン入力→グループ又はミックス出力：0.005%以下 (+20dBu , 1kHz)
  7
TTF_DEFAULT
  0
TEXT
  8
SPEC
  6
CONTINUOUS
 62
     7
 10
853.125
 20
3928.125
 40
37.5
  1
マイク／ ライン入力 (0dB) →各出力 (0dB) : +0/-0.5dB (20Hz～20kHz)
  7
TTF_DEFAULT
  0
LINE
  8
SPEC
  6
CONTINUOUS
 62
     7
 10
262.5
 20
3356.25
 11
2387.5
 21
3356.25
  0
LINE
  8
SPEC
  6
CONTINUOUS
 62
     7
 10
262.5
 20
3187.5
 11
2387.5
 21
3187.5
  0
TEXT
  8
SPEC
  6
CONTINUOUS
 62
     7
 10
853.125
 20
3005.625
 40
37.5
  1
モノ入力インサート、ダイレクト出力：+20dBu (2kΩ)
  7
TTF_DEFAULT
  0
LINE
  8
SPEC
  6
CONTINUOUS
 62
     7
 10
262.5
 20
2962.5
 11
2387.5
 21
2962.5
  0
TEXT
  8
SPEC
  6
CONTINUOUS
 62
     7
 10
853.125
 20
2780.625
 40
37.5
  1
モノ入力インサート、ダイレクト出力：-2dBu (アンバランス)
  7
TTF_DEFAULT
  0
TEXT
  8
SPEC
  6
CONTINUOUS
 62
     7
 10
853.125
 20
2735.625
 40
37.5
  1
グループ、ミックス　インサート：-8dBu (アンバランス)
  7
TTF_DEFAULT
  0
TEXT
  8
SPEC
  6
CONTINUOUS
 62
     7
 10
853.125
 20
2645.625
 40
37.5
  1
グループ、ミックス出力：+4dBu又は-10dBV (ミックス出力、バランス）
  7
TTF_DEFAULT
  0
LINE
  8
SPEC
  6
CONTINUOUS
 62
     7
 10
262.5
 20
2596.875
 11
2387.5
 21
2596.875
  0
TEXT
  8
SPEC
  6
CONTINUOUS
 62
     7
 10
853.125
 20
2550.0
 40
37.5
  1
8chインプット : 548(W)×215(H)×675(D)mm / 約20kg
  7
TTF_DEFAULT
  0
TEXT
  8
SPEC
  6
CONTINUOUS
 62
     7
 10
853.125
 20
2505.0
 40
37.5
  1
16chインプット : 798(W)×215(H)×675(D)mm / 約35kg
  7
TTF_DEFAULT
  0
LINE
  8
SPEC
  6
CONTINUOUS
 62
     7
 10
262.5
 20
2385.9375
 11
2387.5
 21
2385.9375
  0
TEXT
  8
SPEC
  6
CONTINUOUS
 62
     7
 10
853.125
 20
2460.0
 40
37.5
  1
24chインプット : 1048(W)×215(H)×675(D)mm / 約43kg
  7
TTF_DEFAULT
  0
TEXT
  8
SPEC
  6
CONTINUOUS
 62
     7
 10
853.125
 20
2415.0
 40
37.5
  1
32chインプット : 1298(W)×215(H)×675(D)mm / 約50kg
  7
TTF_DEFAULT
  0
POLYLINE
  8
HIBINO-BASE
  6
CONTINUOUS
 62
     7
 66
     1
 70
     1
 40
5.0
 41
5.0
  0
VERTEX
  8
HIBINO-BASE
 10
150.0
 20
225.0
  0
VERTEX
  8
HIBINO-BASE
 10
150.0
 20
4125.0
  0
VERTEX
  8
HIBINO-BASE
 10
2850.0
 20
4125.0
  0
VERTEX
  8
HIBINO-BASE
 10
2850.0
 20
225.0
  0
SEQEND
  8
HIBINO-BASE
  0
LINE
  8
DATA
  6
CONTINUOUS
 62
     7
 10
400.0
 20
1675.0
 11
1698.0
 21
1675.0
  0
LINE
  8
DATA
  6
CONTINUOUS
 62
     7
 10
420.0
 20
1000.0
 11
1678.0
 21
1000.0
  0
LINE
  8
DATA
  6
CONTINUOUS
 62
     7
 10
1660.0
 20
1632.7757
 11
1188.0
 21
1632.7757
  0
LINE
  8
DIMENSIONS
  6
CONTINUOUS
 62
     7
 10
1149.999926
 20
900.0
 11
1698.0
 21
900.0
  0
LINE
  8
DIMENSIONS
  6
CONTINUOUS
 62
     7
 10
1698.0
 20
825.0
 11
900.0
 21
825.0
  0
LINE
  8
DIMENSIONS
  6
CONTINUOUS
 62
     7
 10
1698.0
 20
750.0
 11
650.0
 21
750.0
  0
LINE
  8
DIMENSIONS
  6
CONTINUOUS
 62
     7
 10
1698.0
 20
675.0
 11
400.0
 21
675.0
  0
TEXT
  8
DIMENSIONS
  6
CONTINUOUS
 62
     7
 10
1333.96455
 20
918.75
 40
37.5
  1
548 (8input)
  7
TTF_DEFAULT
  0
TEXT
  8
DIMENSIONS
  6
CONTINUOUS
 62
     7
 10
1333.96455
 20
843.75
 40
37.5
  1
798 (16input)
  7
TTF_DEFAULT
  0
TEXT
  8
DIMENSIONS
  6
CONTINUOUS
 62
     7
 10
1333.96455
 20
768.75
 40
37.5
  1
1048 (24input)
  7
TTF_DEFAULT
  0
TEXT
  8
DIMENSIONS
  6
CONTINUOUS
 62
     7
 10
1333.96455
 20
693.75
 40
37.5
  1
1298 (32input)
  7
TTF_DEFAULT
  0
LINE
  8
DATA
  6
CONTINUOUS
 62
     7
 10
1188.0
 20
1080.0
 11
1660.0
 21
1080.0
  0
LINE
  8
DIMENSIONS
  6
CONTINUOUS
 62
     7
 10
1660.0
 20
1800.0
 11
1188.0
 21
1800.0
  0
LINE
  8
DIMENSIONS
  6
CONTINUOUS
 62
     7
 10
1660.0
 20
1875.0
 11
938.0
 21
1875.0
  0
LINE
  8
DIMENSIONS
  6
CONTINUOUS
 62
     7
 10
1660.0
 20
1950.0
 11
688.0
 21
1950.0
  0
LINE
  8
DIMENSIONS
  6
CONTINUOUS
 62
     7
 10
1660.0
 20
2025.0
 11
438.0
 21
2025.0
  0
TEXT
  8
DIMENSIONS
  6
CONTINUOUS
 62
     7
 10
1333.96455
 20
1818.75
 40
37.5
  1
472 (8input)
  7
TTF_DEFAULT
  0
TEXT
  8
DIMENSIONS
  6
CONTINUOUS
 62
     7
 10
1333.96455
 20
1893.75
 40
37.5
  1
722 (16input)
  7
TTF_DEFAULT
  0
TEXT
  8
DIMENSIONS
  6
CONTINUOUS
 62
     7
 10
1333.96455
 20
1968.75
 40
37.5
  1
972 (24input)
  7
TTF_DEFAULT
  0
TEXT
  8
DIMENSIONS
  6
CONTINUOUS
 62
     7
 10
1333.96455
 20
2043.75
 40
37.5
  1
1222 (32input)
  7
TTF_DEFAULT
  0
LINE
  8
DATA
  6
CONTINUOUS
 62
     7
 10
688.0
 20
1080.0
 11
900.0
 21
1080.0
  0
LINE
  8
DIMENSIONS
  6
CONTINUOUS
 62
     7
 10
718.0
 20
1954.9998
 11
688.0
 21
1950.0
  0
LINE
  8
DIMENSIONS
  6
CONTINUOUS
 62
     7
 10
718.0
 20
1945.0002
 11
688.0
 21
1950.0
  0
TEXT
  8
HIBINO-BASE
  6
CONTINUOUS
 62
     7
 10
257.76
 20
128.8698
 40
60.0
  1
Hibino Corporation
  7
TTF_DEFAULT
  0
ARC
  8
DATA
  6
CONTINUOUS
 62
     7
 10
557.17
 20
1076.7925
 40
157.2027
 50
178.830879
 51
209.241608
  0
ARC
  8
DATA
  6
CONTINUOUS
 62
     7
 10
807.17
 20
1076.7925
 40
157.2027
 50
178.830879
 51
209.241608
  0
LINE
  8
DIMENSIONS
  6
CONTINUOUS
 62
     7
 10
650.0
 20
1065.0
 11
650.0
 21
731.25
  0
LINE
  8
DIMENSIONS
  6
CONTINUOUS
 62
     7
 10
300.0
 20
1000.0
 11
300.0
 21
1675.0
  0
LINE
  8
DIMENSIONS
  6
CONTINUOUS
 62
     7
 10
304.9998
 20
1030.0
 11
300.0
 21
1000.0
  0
LINE
  8
DIMENSIONS
  6
CONTINUOUS
 62
     7
 10
295.0002
 20
1030.0
 11
300.0
 21
1000.0
  0
LINE
  8
DIMENSIONS
  6
CONTINUOUS
 62
     7
 10
400.0
 20
1065.0
 11
400.0
 21
656.25
  0
LINE
  8
DATA
  6
CONTINUOUS
 62
     7
 10
455.0
 20
1080.0
 11
455.0
 21
1000.0
  0
LINE
  8
DIMENSIONS
  6
CONTINUOUS
 62
     7
 10
405.0
 20
1000.0
 11
281.25
 21
1000.0
  0
LINE
  8
DIMENSIONS
  6
CONTINUOUS
 62
     7
 10
680.0
 20
754.9998
 11
650.0
 21
750.0
  0
LINE
  8
DIMENSIONS
  6
CONTINUOUS
 62
     7
 10
680.0
 20
745.0002
 11
650.0
 21
750.0
  0
LINE
  8
DIMENSIONS
  6
CONTINUOUS
 62
     7
 10
430.0
 20
679.9998
 11
400.0
 21
675.0
  0
LINE
  8
DIMENSIONS
  6
CONTINUOUS
 62
     7
 10
430.0
 20
670.0002
 11
400.0
 21
675.0
  0
LINE
  8
DIMENSIONS
  6
CONTINUOUS
 62
     7
 10
385.0
 20
1675.0
 11
281.25
 21
1675.0
  0
TEXT
  8
DIMENSIONS
  6
CONTINUOUS
 62
     7
 10
281.25
 20
1308.359154
 40
37.5
  1
675
 50
90.0
  7
TTF_DEFAULT
  0
LINE
  8
DATA
  6
CONTINUOUS
 62
     7
 10
650.0
 20
1080.0
 11
650.0
 21
1675.0
  0
LINE
  8
DATA
  6
CONTINUOUS
 62
     7
 10
400.0
 20
1080.0
 11
400.0
 21
1675.0
  0
LINE
  8
DATA
  6
CONTINUOUS
 62
     7
 10
688.0
 20
1080.0
 11
688.0
 21
1675.0
  0
LINE
  8
DATA
  6
CONTINUOUS
 62
     7
 10
438.0
 20
1080.0
 11
438.0
 21
1675.0
  0
LINE
  8
DATA
  6
CONTINUOUS
 62
     7
 10
438.0
 20
1080.0
 11
650.0
 21
1080.0
  0
LINE
  8
DIMENSIONS
  6
CONTINUOUS
 62
     7
 10
304.9998
 20
1645.0
 11
300.0
 21
1675.0
  0
LINE
  8
DIMENSIONS
  6
CONTINUOUS
 62
     7
 10
295.0002
 20
1645.0
 11
300.0
 21
1675.0
  0
LINE
  8
DIMENSIONS
  6
CONTINUOUS
 62
     7
 10
688.0
 20
1690.0
 11
688.0
 21
1968.75
  0
LINE
  8
DIMENSIONS
  6
CONTINUOUS
 62
     7
 10
438.0
 20
1690.0
 11
438.0
 21
2043.75
  0
LINE
  8
DIMENSIONS
  6
CONTINUOUS
 62
     7
 10
468.0
 20
2029.9998
 11
438.0
 21
2025.0
  0
LINE
  8
DIMENSIONS
  6
CONTINUOUS
 62
     7
 10
468.0
 20
2020.0002
 11
438.0
 21
2025.0
  0
ARC
  8
DATA
  6
CONTINUOUS
 62
     7
 10
1057.17
 20
1076.7925
 40
157.2027
 50
178.830879
 51
209.241608
  0
LINE
  8
DATA
  6
CONTINUOUS
 62
     7
 10
1205.0
 20
1080.0
 11
1205.0
 21
1000.0
  0
ARC
  8
DATA
  6
CONTINUOUS
 62
     7
 10
1307.1699
 20
1076.7925
 40
157.2027
 50
178.830879
 51
209.241608
  0
LINE
  8
DIMENSIONS
  6
CONTINUOUS
 62
     7
 10
1149.999926
 20
1065.0
 11
1149.999926
 21
881.25
  0
LINE
  8
DIMENSIONS
  6
CONTINUOUS
 62
     7
 10
900.0
 20
1065.0
 11
900.0
 21
806.25
  0
LINE
  8
DATA
  6
CONTINUOUS
 62
     7
 10
955.0
 20
1080.0
 11
955.0
 21
1000.0
  0
LINE
  8
DATA
  6
CONTINUOUS
 62
     7
 10
705.0
 20
1080.0
 11
705.0
 21
1000.0
  0
LINE
  8
DIMENSIONS
  6
CONTINUOUS
 62
     7
 10
930.0
 20
829.9998
 11
900.0
 21
825.0
  0
LINE
  8
DIMENSIONS
  6
CONTINUOUS
 62
     7
 10
930.0
 20
820.0002
 11
900.0
 21
825.0
  0
TEXT
  8
DIMENSIONS
  6
CONTINUOUS
 62
     7
 10
1275.0
 20
393.75
 40
37.5
  1
(単位 : mm)
  7
TTF_DEFAULT
  0
LINE
  8
DIMENSIONS
  6
CONTINUOUS
 62
     7
 10
1179.999926
 20
895.0002
 11
1149.999926
 21
900.0
  0
LINE
  8
DIMENSIONS
  6
CONTINUOUS
 62
     7
 10
1179.999926
 20
904.9998
 11
1149.999926
 21
900.0
  0
LINE
  8
DATA
  6
CONTINUOUS
 62
     7
 10
938.0
 20
1080.0
 11
1150.0
 21
1080.0
  0
LINE
  8
DATA
  6
CONTINUOUS
 62
     7
 10
900.0
 20
1080.0
 11
900.0
 21
1675.0
  0
LINE
  8
DATA
  6
CONTINUOUS
 62
     7
 10
938.0
 20
1080.0
 11
938.0
 21
1675.0
  0
LINE
  8
DIMENSIONS
  6
CONTINUOUS
 62
     7
 10
938.0
 20
1690.0
 11
938.0
 21
1893.75
  0
LINE
  8
DIMENSIONS
  6
CONTINUOUS
 62
     7
 10
968.0
 20
1879.9998
 11
938.0
 21
1875.0
  0
LINE
  8
DIMENSIONS
  6
CONTINUOUS
 62
     7
 10
968.0
 20
1870.0002
 11
938.0
 21
1875.0
  0
LINE
  8
DATA
  6
CONTINUOUS
 62
     7
 10
1188.0
 20
1080.0
 11
1188.0
 21
1675.0
  0
LINE
  8
DATA
  6
CONTINUOUS
 62
     7
 10
1150.0
 20
1073.5849
 11
1150.0
 21
1675.0
  0
LINE
  8
DATA
  6
CONTINUOUS
 62
     7
 10
1221.7143
 20
1080.0
 11
1221.7143
 21
1675.0
  0
LINE
  8
DATA
  6
CONTINUOUS
 62
     7
 10
1255.4286
 20
1080.0
 11
1255.4286
 21
1675.0
  0
LINE
  8
DATA
  6
CONTINUOUS
 62
     7
 10
1289.1429
 20
1080.0
 11
1289.1429
 21
1675.0
  0
LINE
  8
DATA
  6
CONTINUOUS
 62
     7
 10
1322.8572
 20
1080.0
 11
1322.8572
 21
1675.0
  0
LINE
  8
DATA
  6
CONTINUOUS
 62
     7
 10
1356.5715
 20
1080.0
 11
1356.5715
 21
1675.0
  0
LINE
  8
DATA
  6
CONTINUOUS
 62
     7
 10
1390.2858
 20
1080.0
 11
1390.2858
 21
1675.0
  0
LINE
  8
DATA
  6
CONTINUOUS
 62
     7
 10
1424.0001
 20
1080.0
 11
1424.0001
 21
1675.0
  0
LINE
  8
DATA
  6
CONTINUOUS
 62
     7
 10
1457.7144
 20
1080.0
 11
1457.7144
 21
1675.0
  0
CIRCLE
  8
DATA
  6
CONTINUOUS
 62
     7
 10
1440.8573
 20
1552.2625
 40
7.5
  0
CIRCLE
  8
DATA
  6
CONTINUOUS
 62
     7
 10
1440.8573
 20
1530.7772
 40
7.5
  0
CIRCLE
  8
DATA
  6
CONTINUOUS
 62
     7
 10
1440.8573
 20
1509.2918
 40
7.5
  0
CIRCLE
  8
DATA
  6
CONTINUOUS
 62
     7
 10
1440.8573
 20
1487.8065
 40
7.5
  0
CIRCLE
  8
DATA
  6
CONTINUOUS
 62
     7
 10
1440.8573
 20
1466.3212
 40
7.5
  0
CIRCLE
  8
DATA
  6
CONTINUOUS
 62
     7
 10
1440.8573
 20
1444.8358
 40
7.5
  0
CIRCLE
  8
DATA
  6
CONTINUOUS
 62
     7
 10
1440.8573
 20
1400.8885
 40
7.5
  0
CIRCLE
  8
DATA
  6
CONTINUOUS
 62
     7
 10
1440.8573
 20
1374.5202
 40
7.5
  0
CIRCLE
  8
DATA
  6
CONTINUOUS
 62
     7
 10
1440.8573
 20
1354.4501
 40
7.5
  0
CIRCLE
  8
DATA
  6
CONTINUOUS
 62
     7
 10
1440.8573
 20
1332.9648
 40
7.5
  0
CIRCLE
  8
DATA
  6
CONTINUOUS
 62
     7
 10
1440.8573
 20
1311.4794
 40
7.5
  0
CIRCLE
  8
DATA
  6
CONTINUOUS
 62
     7
 10
1440.8573
 20
1289.9941
 40
7.5
  0
CIRCLE
  8
DATA
  6
CONTINUOUS
 62
     7
 10
1440.8573
 20
1268.5087
 40
7.5
  0
CIRCLE
  8
DATA
  6
CONTINUOUS
 62
     7
 10
1407.143
 20
1552.2625
 40
7.5
  0
CIRCLE
  8
DATA
  6
CONTINUOUS
 62
     7
 10
1407.143
 20
1530.7772
 40
7.5
  0
CIRCLE
  8
DATA
  6
CONTINUOUS
 62
     7
 10
1407.143
 20
1509.2918
 40
7.5
  0
CIRCLE
  8
DATA
  6
CONTINUOUS
 62
     7
 10
1407.143
 20
1487.8065
 40
7.5
  0
CIRCLE
  8
DATA
  6
CONTINUOUS
 62
     7
 10
1407.143
 20
1466.3212
 40
7.5
  0
CIRCLE
  8
DATA
  6
CONTINUOUS
 62
     7
 10
1407.143
 20
1444.8358
 40
7.5
  0
CIRCLE
  8
DATA
  6
CONTINUOUS
 62
     7
 10
1407.143
 20
1400.8885
 40
7.5
  0
CIRCLE
  8
DATA
  6
CONTINUOUS
 62
     7
 10
1407.143
 20
1374.5202
 40
7.5
  0
CIRCLE
  8
DATA
  6
CONTINUOUS
 62
     7
 10
1407.143
 20
1354.4501
 40
7.5
  0
CIRCLE
  8
DATA
  6
CONTINUOUS
 62
     7
 10
1407.143
 20
1332.9648
 40
7.5
  0
CIRCLE
  8
DATA
  6
CONTINUOUS
 62
     7
 10
1407.143
 20
1311.4794
 40
7.5
  0
CIRCLE
  8
DATA
  6
CONTINUOUS
 62
     7
 10
1407.143
 20
1289.9941
 40
7.5
  0
CIRCLE
  8
DATA
  6
CONTINUOUS
 62
     7
 10
1407.143
 20
1268.5087
 40
7.5
  0
CIRCLE
  8
DATA
  6
CONTINUOUS
 62
     7
 10
1373.4287
 20
1552.2625
 40
7.5
  0
CIRCLE
  8
DATA
  6
CONTINUOUS
 62
     7
 10
1373.4287
 20
1530.7772
 40
7.5
  0
CIRCLE
  8
DATA
  6
CONTINUOUS
 62
     7
 10
1373.4287
 20
1509.2918
 40
7.5
  0
CIRCLE
  8
DATA
  6
CONTINUOUS
 62
     7
 10
1373.4287
 20
1487.8065
 40
7.5
  0
CIRCLE
  8
DATA
  6
CONTINUOUS
 62
     7
 10
1373.4287
 20
1466.3212
 40
7.5
  0
CIRCLE
  8
DATA
  6
CONTINUOUS
 62
     7
 10
1373.4287
 20
1444.8358
 40
7.5
  0
CIRCLE
  8
DATA
  6
CONTINUOUS
 62
     7
 10
1373.4287
 20
1400.8885
 40
7.5
  0
CIRCLE
  8
DATA
  6
CONTINUOUS
 62
     7
 10
1373.4287
 20
1374.5202
 40
7.5
  0
CIRCLE
  8
DATA
  6
CONTINUOUS
 62
     7
 10
1373.4287
 20
1354.4501
 40
7.5
  0
CIRCLE
  8
DATA
  6
CONTINUOUS
 62
     7
 10
1373.4287
 20
1332.9648
 40
7.5
  0
CIRCLE
  8
DATA
  6
CONTINUOUS
 62
     7
 10
1373.4287
 20
1311.4794
 40
7.5
  0
CIRCLE
  8
DATA
  6
CONTINUOUS
 62
     7
 10
1373.4287
 20
1289.9941
 40
7.5
  0
CIRCLE
  8
DATA
  6
CONTINUOUS
 62
     7
 10
1373.4287
 20
1268.5087
 40
7.5
  0
CIRCLE
  8
DATA
  6
CONTINUOUS
 62
     7
 10
1339.7144
 20
1552.2625
 40
7.5
  0
CIRCLE
  8
DATA
  6
CONTINUOUS
 62
     7
 10
1339.7144
 20
1530.7772
 40
7.5
  0
CIRCLE
  8
DATA
  6
CONTINUOUS
 62
     7
 10
1339.7144
 20
1509.2918
 40
7.5
  0
CIRCLE
  8
DATA
  6
CONTINUOUS
 62
     7
 10
1339.7144
 20
1487.8065
 40
7.5
  0
CIRCLE
  8
DATA
  6
CONTINUOUS
 62
     7
 10
1339.7144
 20
1466.3212
 40
7.5
  0
CIRCLE
  8
DATA
  6
CONTINUOUS
 62
     7
 10
1339.7144
 20
1444.8358
 40
7.5
  0
CIRCLE
  8
DATA
  6
CONTINUOUS
 62
     7
 10
1339.7144
 20
1400.8885
 40
7.5
  0
CIRCLE
  8
DATA
  6
CONTINUOUS
 62
     7
 10
1339.7144
 20
1374.5202
 40
7.5
  0
CIRCLE
  8
DATA
  6
CONTINUOUS
 62
     7
 10
1339.7144
 20
1354.4501
 40
7.5
  0
CIRCLE
  8
DATA
  6
CONTINUOUS
 62
     7
 10
1339.7144
 20
1332.9648
 40
7.5
  0
CIRCLE
  8
DATA
  6
CONTINUOUS
 62
     7
 10
1339.7144
 20
1311.4794
 40
7.5
  0
CIRCLE
  8
DATA
  6
CONTINUOUS
 62
     7
 10
1339.7144
 20
1289.9941
 40
7.5
  0
CIRCLE
  8
DATA
  6
CONTINUOUS
 62
     7
 10
1339.7144
 20
1268.5087
 40
7.5
  0
CIRCLE
  8
DATA
  6
CONTINUOUS
 62
     7
 10
1306.0001
 20
1552.2625
 40
7.5
  0
CIRCLE
  8
DATA
  6
CONTINUOUS
 62
     7
 10
1306.0001
 20
1530.7772
 40
7.5
  0
CIRCLE
  8
DATA
  6
CONTINUOUS
 62
     7
 10
1306.0001
 20
1509.2918
 40
7.5
  0
CIRCLE
  8
DATA
  6
CONTINUOUS
 62
     7
 10
1306.0001
 20
1487.8065
 40
7.5
  0
CIRCLE
  8
DATA
  6
CONTINUOUS
 62
     7
 10
1306.0001
 20
1466.3212
 40
7.5
  0
CIRCLE
  8
DATA
  6
CONTINUOUS
 62
     7
 10
1306.0001
 20
1444.8358
 40
7.5
  0
CIRCLE
  8
DATA
  6
CONTINUOUS
 62
     7
 10
1306.0001
 20
1400.8885
 40
7.5
  0
CIRCLE
  8
DATA
  6
CONTINUOUS
 62
     7
 10
1306.0001
 20
1374.5202
 40
7.5
  0
CIRCLE
  8
DATA
  6
CONTINUOUS
 62
     7
 10
1306.0001
 20
1354.4501
 40
7.5
  0
CIRCLE
  8
DATA
  6
CONTINUOUS
 62
     7
 10
1306.0001
 20
1332.9648
 40
7.5
  0
CIRCLE
  8
DATA
  6
CONTINUOUS
 62
     7
 10
1306.0001
 20
1311.4794
 40
7.5
  0
CIRCLE
  8
DATA
  6
CONTINUOUS
 62
     7
 10
1306.0001
 20
1289.9941
 40
7.5
  0
CIRCLE
  8
DATA
  6
CONTINUOUS
 62
     7
 10
1306.0001
 20
1268.5087
 40
7.5
  0
CIRCLE
  8
DATA
  6
CONTINUOUS
 62
     7
 10
1272.2858
 20
1552.2625
 40
7.5
  0
CIRCLE
  8
DATA
  6
CONTINUOUS
 62
     7
 10
1272.2858
 20
1530.7772
 40
7.5
  0
CIRCLE
  8
DATA
  6
CONTINUOUS
 62
     7
 10
1272.2858
 20
1509.2918
 40
7.5
  0
CIRCLE
  8
DATA
  6
CONTINUOUS
 62
     7
 10
1272.2858
 20
1487.8065
 40
7.5
  0
CIRCLE
  8
DATA
  6
CONTINUOUS
 62
     7
 10
1272.2858
 20
1466.3212
 40
7.5
  0
CIRCLE
  8
DATA
  6
CONTINUOUS
 62
     7
 10
1272.2858
 20
1444.8358
 40
7.5
  0
CIRCLE
  8
DATA
  6
CONTINUOUS
 62
     7
 10
1272.2858
 20
1400.8885
 40
7.5
  0
CIRCLE
  8
DATA
  6
CONTINUOUS
 62
     7
 10
1272.2858
 20
1374.5202
 40
7.5
  0
CIRCLE
  8
DATA
  6
CONTINUOUS
 62
     7
 10
1272.2858
 20
1354.4501
 40
7.5
  0
CIRCLE
  8
DATA
  6
CONTINUOUS
 62
     7
 10
1272.2858
 20
1332.9648
 40
7.5
  0
CIRCLE
  8
DATA
  6
CONTINUOUS
 62
     7
 10
1272.2858
 20
1311.4794
 40
7.5
  0
CIRCLE
  8
DATA
  6
CONTINUOUS
 62
     7
 10
1272.2858
 20
1289.9941
 40
7.5
  0
CIRCLE
  8
DATA
  6
CONTINUOUS
 62
     7
 10
1272.2858
 20
1268.5087
 40
7.5
  0
CIRCLE
  8
DATA
  6
CONTINUOUS
 62
     7
 10
1238.5715
 20
1552.2625
 40
7.5
  0
CIRCLE
  8
DATA
  6
CONTINUOUS
 62
     7
 10
1238.5715
 20
1530.7772
 40
7.5
  0
CIRCLE
  8
DATA
  6
CONTINUOUS
 62
     7
 10
1238.5715
 20
1509.2918
 40
7.5
  0
CIRCLE
  8
DATA
  6
CONTINUOUS
 62
     7
 10
1238.5715
 20
1487.8065
 40
7.5
  0
CIRCLE
  8
DATA
  6
CONTINUOUS
 62
     7
 10
1238.5715
 20
1466.3212
 40
7.5
  0
CIRCLE
  8
DATA
  6
CONTINUOUS
 62
     7
 10
1238.5715
 20
1444.8358
 40
7.5
  0
CIRCLE
  8
DATA
  6
CONTINUOUS
 62
     7
 10
1238.5715
 20
1400.8885
 40
7.5
  0
CIRCLE
  8
DATA
  6
CONTINUOUS
 62
     7
 10
1238.5715
 20
1374.5202
 40
7.5
  0
CIRCLE
  8
DATA
  6
CONTINUOUS
 62
     7
 10
1238.5715
 20
1354.4501
 40
7.5
  0
CIRCLE
  8
DATA
  6
CONTINUOUS
 62
     7
 10
1238.5715
 20
1332.9648
 40
7.5
  0
CIRCLE
  8
DATA
  6
CONTINUOUS
 62
     7
 10
1238.5715
 20
1311.4794
 40
7.5
  0
CIRCLE
  8
DATA
  6
CONTINUOUS
 62
     7
 10
1238.5715
 20
1289.9941
 40
7.5
  0
CIRCLE
  8
DATA
  6
CONTINUOUS
 62
     7
 10
1238.5715
 20
1268.5087
 40
7.5
  0
CIRCLE
  8
DATA
  6
CONTINUOUS
 62
     7
 10
1204.8572
 20
1552.2625
 40
7.5
  0
CIRCLE
  8
DATA
  6
CONTINUOUS
 62
     7
 10
1204.8572
 20
1530.7772
 40
7.5
  0
CIRCLE
  8
DATA
  6
CONTINUOUS
 62
     7
 10
1204.8572
 20
1509.2918
 40
7.5
  0
CIRCLE
  8
DATA
  6
CONTINUOUS
 62
     7
 10
1204.8572
 20
1487.8065
 40
7.5
  0
CIRCLE
  8
DATA
  6
CONTINUOUS
 62
     7
 10
1204.8572
 20
1466.3212
 40
7.5
  0
CIRCLE
  8
DATA
  6
CONTINUOUS
 62
     7
 10
1204.8572
 20
1444.8358
 40
7.5
  0
CIRCLE
  8
DATA
  6
CONTINUOUS
 62
     7
 10
1204.8572
 20
1400.8885
 40
7.5
  0
CIRCLE
  8
DATA
  6
CONTINUOUS
 62
     7
 10
1204.8572
 20
1374.5202
 40
7.5
  0
CIRCLE
  8
DATA
  6
CONTINUOUS
 62
     7
 10
1204.8572
 20
1354.4501
 40
7.5
  0
CIRCLE
  8
DATA
  6
CONTINUOUS
 62
     7
 10
1204.8572
 20
1332.9648
 40
7.5
  0
CIRCLE
  8
DATA
  6
CONTINUOUS
 62
     7
 10
1204.8572
 20
1311.4794
 40
7.5
  0
CIRCLE
  8
DATA
  6
CONTINUOUS
 62
     7
 10
1204.8572
 20
1289.9941
 40
7.5
  0
CIRCLE
  8
DATA
  6
CONTINUOUS
 62
     7
 10
1204.8572
 20
1268.5087
 40
7.5
  0
CIRCLE
  8
DATA
  6
CONTINUOUS
 62
     7
 10
1440.8573
 20
1596.2098
 40
7.5
  0
CIRCLE
  8
DATA
  6
CONTINUOUS
 62
     7
 10
1407.143
 20
1596.2098
 40
7.5
  0
CIRCLE
  8
DATA
  6
CONTINUOUS
 62
     7
 10
1373.4287
 20
1596.2098
 40
7.5
  0
CIRCLE
  8
DATA
  6
CONTINUOUS
 62
     7
 10
1339.7144
 20
1596.2098
 40
7.5
  0
CIRCLE
  8
DATA
  6
CONTINUOUS
 62
     7
 10
1306.0001
 20
1596.2098
 40
7.5
  0
CIRCLE
  8
DATA
  6
CONTINUOUS
 62
     7
 10
1272.2858
 20
1596.2098
 40
7.5
  0
CIRCLE
  8
DATA
  6
CONTINUOUS
 62
     7
 10
1238.5715
 20
1596.2098
 40
7.5
  0
CIRCLE
  8
DATA
  6
CONTINUOUS
 62
     7
 10
1204.8572
 20
1596.2098
 40
7.5
  0
LINE
  8
DIMENSIONS
  6
CONTINUOUS
 62
     7
 10
1188.0
 20
1690.0
 11
1188.0
 21
1818.75
  0
LINE
  8
DIMENSIONS
  6
CONTINUOUS
 62
     7
 10
1218.0
 20
1804.9998
 11
1188.0
 21
1800.0
  0
LINE
  8
DIMENSIONS
  6
CONTINUOUS
 62
     7
 10
1218.0
 20
1795.0002
 11
1188.0
 21
1800.0
  0
LINE
  8
SPEC
  6
CONTINUOUS
 62
     7
 10
262.5
 20
3975.0
 11
262.5
 21
2385.9375
  0
TEXT
  8
SPEC
  6
CONTINUOUS
 62
     7
 10
271.875
 20
3140.625
 40
37.5
  1
最大出力
  7
TTF_DEFAULT
  0
TEXT
  8
SPEC
  6
CONTINUOUS
 62
     7
 10
271.875
 20
2915.625
 40
37.5
  1
入出力レベル
  7
TTF_DEFAULT
  0
TEXT
  8
SPEC
  6
CONTINUOUS
 62
     7
 10
271.875
 20
2550.0
 40
37.5
  1
寸法 / 重量
  7
TTF_DEFAULT
  0
TEXT
  8
SPEC
  6
CONTINUOUS
 62
     7
 10
281.25
 20
3993.75
 40
45.0
  1
仕様
  7
TTF_DEFAULT
  0
TEXT
  8
SPEC
  6
CONTINUOUS
 62
     7
 10
271.875
 20
3928.125
 40
37.5
  1
周波数特性
  7
TTF_DEFAULT
  0
TEXT
  8
SPEC
  6
CONTINUOUS
 62
     7
 10
271.875
 20
3871.875
 40
37.5
  1
全高調波歪率
  7
TTF_DEFAULT
  0
TEXT
  8
SPEC
  6
CONTINUOUS
 62
     7
 10
271.875
 20
3759.375
 40
37.5
  1
ノイズ
  7
TTF_DEFAULT
  0
TEXT
  8
SPEC
  6
CONTINUOUS
 62
     7
 10
271.875
 20
3590.625
 40
37.5
  1
クロストーク
  7
TTF_DEFAULT
  0
TEXT
  8
SPEC
  6
CONTINUOUS
 62
     7
 10
271.875
 20
3309.375
 40
37.5
  1
入出力インピーダンス
  7
TTF_DEFAULT
  0
TEXT
  8
SPEC
  6
CONTINUOUS
 62
     7
 10
853.125
 20
3219.375
 40
37.5
  1
出力：75Ω
  7
TTF_DEFAULT
  0
LINE
  8
SPEC
  6
CONTINUOUS
 62
     7
 10
843.75
 20
3975.0
 11
843.75
 21
2385.9375
  0
TEXT
  8
SPEC
  6
CONTINUOUS
 62
     7
 10
853.125
 20
3050.625
 40
37.5
  1
グループ、AUXインサート：+21dBu (600Ω)
  7
TTF_DEFAULT
  0
TEXT
  8
SPEC
  6
CONTINUOUS
 62
     7
 10
853.125
 20
2825.625
 40
37.5
  1
2-Track , tape Returns：+4dBu又は-10dBV
  7
TTF_DEFAULT
  0
TEXT
  8
SPEC
  6
CONTINUOUS
 62
     7
 10
853.125
 20
3140.625
 40
37.5
  1
グループ、AUX出力：+21dBu (600Ω)
  7
TTF_DEFAULT
  0
TEXT
  8
SPEC
  6
CONTINUOUS
 62
     7
 10
853.125
 20
3095.625
 40
37.5
  1
ミックス出力：+27dBu (600Ω)
  7
TTF_DEFAULT
  0
TEXT
  8
SPEC
  6
CONTINUOUS
 62
     7
 10
853.125
 20
2870.625
 40
37.5
  1
ライン入力：-10dBu～+20dBu
  7
TTF_DEFAULT
  0
TEXT
  8
SPEC
  6
CONTINUOUS
 62
     7
 10
853.125
 20
2915.625
 40
37.5
  1
マイク入力：-2dBu～-70dBu
  7
TTF_DEFAULT
  0
TEXT
  8
SPEC
  6
CONTINUOUS
 62
     7
 10
853.125
 20
2690.625
 40
37.5
  1
AUX出力：+4dBu
  7
TTF_DEFAULT
  0
TEXT
  8
SPEC
  6
CONTINUOUS
 62
     7
 10
853.125
 20
3309.375
 40
37.5
  1
マイク入力：2kΩ (バランス)
  7
TTF_DEFAULT
  0
TEXT
  8
SPEC
  6
CONTINUOUS
 62
     7
 10
853.125
 20
3264.375
 40
37.5
  1
ライン入力：10kΩ以上 (バランス)
  7
TTF_DEFAULT
  0
TEXT
  8
HIBINO-BASE
  6
CONTINUOUS
 62
     7
 10
2231.25
 20
262.5
 40
37.5
  1
N.Sasaki
  7
TTF_DEFAULT
  0
LINE
  8
HIBINO-BASE
  6
CONTINUOUS
 62
     7
 10
1500.0
 20
375.0
 11
2850.0
 21
375.0
  0
TEXT
  8
HIBINO-BASE
  6
CONTINUOUS
 62
     7
 10
2220.0
 20
337.5
 40
37.5
  1
DRAWN
  7
TTF_DEFAULT
  0
LINE
  8
0
  6
CONTINUOUS
 62
     7
 10
1500.0
 20
565.0
 11
2850.0
 21
565.0
  0
LINE
  8
0
  6
CONTINUOUS
 62
     7
 10
1500.0
 20
560.0
 11
2850.0
 21
560.0
  0
LINE
  8
0
  6
CONTINUOUS
 62
     7
 10
1500.0
 20
565.0
 11
1500.0
 21
560.0
  0
LINE
  8
0
  6
CONTINUOUS
 62
     7
 10
2850.0
 20
565.0
 11
2850.0
 21
560.0
  0
SOLID
  8
HIBINO-BASE
  6
CONTINUOUS
 62
     7
 10
1500.0
 20
565.0
 11
2850.0
 21
565.0
 12
1500.0
 22
560.0
 13
2850.0
 23
560.0
  0
LINE
  8
DIMENSIONS
  6
CONTINUOUS
 62
     7
 10
2207.0
 20
1750.0
 11
2267.0
 21
1750.0
  0
LINE
  8
DIMENSIONS
  6
CONTINUOUS
 62
     7
 10
2150.00004
 20
999.999918
 11
2318.75
 21
999.999918
  0
LINE
  8
DIMENSIONS
  6
CONTINUOUS
 62
     7
 10
2215.0
 20
1675.0
 11
2318.75
 21
1675.0
  0
TEXT
  8
DIMENSIONS
  6
CONTINUOUS
 62
     7
 10
2281.25
 20
1308.57504
 40
37.5
  1
675
 50
90.0
  7
TTF_DEFAULT
  0
LINE
  8
DATA
  6
CONTINUOUS
 62
     7
 10
1643.0
 20
1080.0
 11
1643.0
 21
1000.0
  0
ARC
  8
DATA
  6
CONTINUOUS
 62
     7
 10
1540.83
 20
1076.7925
 40
157.2027
 50
330.758392
 51
1.169121
  0
ARC
  8
DATA
  6
CONTINUOUS
 62
     7
 10
1626.5097
 20
987.1972
 40
540.0183
 50
2.407017
 51
10.203387
  0
ARC
  8
DATA
  6
CONTINUOUS
 62
     7
 10
3383.3007
 20
1397.0618
 40
1309.9285
 50
194.310912
 51
197.644927
  0
LINE
  8
DIMENSIONS
  6
CONTINUOUS
 62
     7
 10
2207.0
 20
1213.6548
 11
2207.0
 21
881.25
  0
LINE
  8
DIMENSIONS
  6
CONTINUOUS
 62
     7
 10
1698.0
 20
1065.0
 11
1698.0
 21
656.25
  0
TEXT
  8
HIBINO-BASE
  6
CONTINUOUS
 62
     7
 10
1845.0
 20
337.5
 40
37.5
  1
DATE
  7
TTF_DEFAULT
  0
TEXT
  8
HIBINO-BASE
  6
CONTINUOUS
 62
     7
 10
1856.25
 20
262.5
 40
37.5
  1
'99.09.
  7
TTF_DEFAULT
  0
LINE
  8
0
  6
CONTINUOUS
 62
     7
 10
1497.5
 20
225.0
 11
1497.5
 21
562.5
  0
LINE
  8
0
  6
CONTINUOUS
 62
     7
 10
1502.5
 20
225.0
 11
1502.5
 21
562.5
  0
LINE
  8
0
  6
CONTINUOUS
 62
     7
 10
1497.5
 20
225.0
 11
1502.5
 21
225.0
  0
LINE
  8
0
  6
CONTINUOUS
 62
     7
 10
1497.5
 20
562.5
 11
1502.5
 21
562.5
  0
SOLID
  8
HIBINO-BASE
  6
CONTINUOUS
 62
     7
 10
1497.5
 20
225.0
 11
1497.5
 21
562.5
 12
1502.5
 22
225.0
 13
1502.5
 23
562.5
  0
TEXT
  8
HIBINO-BASE
  6
CONTINUOUS
 62
     7
 10
1556.25
 20
243.75
 40
60.0
  1
A4
  7
TTF_DEFAULT
  0
LINE
  8
HIBINO-BASE
  6
CONTINUOUS
 62
     7
 10
1715.625
 20
243.75
 11
1771.875
 21
300.0
  0
TEXT
  8
HIBINO-BASE
  6
CONTINUOUS
 62
     7
 10
1706.25
 20
271.875
 40
45.0
  1
1
  7
TTF_DEFAULT
  0
TEXT
  8
HIBINO-BASE
  6
CONTINUOUS
 62
     7
 10
1507.5
 20
337.5
 40
33.75
  1
図面サイズ
  7
TTF_DEFAULT
  0
TEXT
  8
HIBINO-BASE
  6
CONTINUOUS
 62
     7
 10
1695.0
 20
337.5
 40
37.5
  1
SCALE
  7
TTF_DEFAULT
  0
LINE
  8
HIBINO-BASE
  6
CONTINUOUS
 62
     7
 10
1837.5
 20
225.0
 11
1837.5
 21
375.0
  0
LINE
  8
HIBINO-BASE
  6
CONTINUOUS
 62
     7
 10
1687.5
 20
225.0
 11
1687.5
 21
375.0
  0
TEXT
  8
HIBINO-BASE
  6
CONTINUOUS
 62
     7
 10
1762.5
 20
243.75
 40
45.0
  1
15
  7
TTF_DEFAULT
  0
TEXT
  8
HIBINO-BASE
  6
CONTINUOUS
 62
     7
 10
1507.5
 20
525.0
 40
37.5
  1
NOTE
  7
TTF_DEFAULT
  0
LINE
  8
DIMENSIONS
  6
CONTINUOUS
 62
     7
 10
1668.0
 20
895.0002
 11
1698.0
 21
900.0
  0
LINE
  8
DIMENSIONS
  6
CONTINUOUS
 62
     7
 10
1668.0
 20
904.9998
 11
1698.0
 21
900.0
  0
LINE
  8
DIMENSIONS
  6
CONTINUOUS
 62
     7
 10
1668.0
 20
829.9998
 11
1698.0
 21
825.0
  0
LINE
  8
DIMENSIONS
  6
CONTINUOUS
 62
     7
 10
1668.0
 20
820.0002
 11
1698.0
 21
825.0
  0
LINE
  8
DIMENSIONS
  6
CONTINUOUS
 62
     7
 10
1668.0
 20
754.9998
 11
1698.0
 21
750.0
  0
LINE
  8
DIMENSIONS
  6
CONTINUOUS
 62
     7
 10
1668.0
 20
745.0002
 11
1698.0
 21
750.0
  0
LINE
  8
DIMENSIONS
  6
CONTINUOUS
 62
     7
 10
1668.0
 20
679.9998
 11
1698.0
 21
675.0
  0
LINE
  8
DIMENSIONS
  6
CONTINUOUS
 62
     7
 10
1668.0
 20
670.0002
 11
1698.0
 21
675.0
  0
LINE
  8
HIBINO-BASE
  6
CONTINUOUS
 62
     7
 10
2025.0
 20
225.0
 11
2025.0
 21
562.5
  0
TEXT
  8
HIBINO-BASE
  6
CONTINUOUS
 62
     7
 10
2032.5
 20
337.5
 40
37.5
  1
DESIGN
  7
TTF_DEFAULT
  0
LINE
  8
HIBINO-BASE
  6
CONTINUOUS
 62
     7
 10
2212.5
 20
375.0
 11
2212.5
 21
225.0
  0
TEXT
  8
HIBINO-BASE
  6
CONTINUOUS
 62
     7
 10
2032.5
 20
525.0
 40
37.5
  1
TITLE
  7
TTF_DEFAULT
  0
LINE
  8
DATA
  6
CONTINUOUS
 62
     7
 10
2135.0
 20
1000.0
 11
2166.0515
 21
1009.8769
  0
LINE
  8
DIMENSIONS
  6
CONTINUOUS
 62
     7
 10
2135.0
 20
900.0
 11
2207.0
 21
900.0
  0
LINE
  8
DIMENSIONS
  6
CONTINUOUS
 62
     7
 10
2135.0
 20
985.0
 11
2135.0
 21
881.25
  0
LINE
  8
DIMENSIONS
  6
CONTINUOUS
 62
     7
 10
2165.0
 20
895.0002
 11
2135.0
 21
900.0
  0
LINE
  8
DIMENSIONS
  6
CONTINUOUS
 62
     7
 10
2165.0
 20
904.9998
 11
2135.0
 21
900.0
  0
LINE
  8
DIMENSIONS
  6
CONTINUOUS
 62
     7
 10
2177.0
 20
895.0002
 11
2207.0
 21
900.0
  0
LINE
  8
DIMENSIONS
  6
CONTINUOUS
 62
     7
 10
2177.0
 20
904.9998
 11
2207.0
 21
900.0
  0
TEXT
  8
DIMENSIONS
  6
CONTINUOUS
 62
     7
 10
2151.71672
 20
918.75
 40
37.5
  1
72
  7
TTF_DEFAULT
  0
LINE
  8
DATA
  6
CONTINUOUS
 62
     7
 10
1660.0
 20
1675.0
 11
1660.0
 21
1080.0
  0
LINE
  8
DATA
  6
CONTINUOUS
 62
     7
 10
1698.0
 20
1080.0
 11
1698.0
 21
1675.0
  0
LINE
  8
DATA
  6
CONTINUOUS
 62
     7
 10
1491.4287
 20
1080.0
 11
1491.4287
 21
1675.0
  0
LINE
  8
DATA
  6
CONTINUOUS
 62
     7
 10
1525.143
 20
1080.0
 11
1525.143
 21
1675.0
  0
LINE
  8
DATA
  6
CONTINUOUS
 62
     7
 10
1558.8573
 20
1080.0
 11
1558.8573
 21
1675.0
  0
LINE
  8
DATA
  6
CONTINUOUS
 62
     7
 10
1592.5716
 20
1080.0
 11
1592.5716
 21
1675.0
  0
LINE
  8
DIMENSIONS
  6
CONTINUOUS
 62
     7
 10
1630.0
 20
1804.9998
 11
1660.0
 21
1800.0
  0
LINE
  8
DIMENSIONS
  6
CONTINUOUS
 62
     7
 10
1630.0
 20
1795.0002
 11
1660.0
 21
1800.0
  0
LINE
  8
DIMENSIONS
  6
CONTINUOUS
 62
     7
 10
1630.0
 20
1879.9998
 11
1660.0
 21
1875.0
  0
LINE
  8
DIMENSIONS
  6
CONTINUOUS
 62
     7
 10
1630.0
 20
1870.0002
 11
1660.0
 21
1875.0
  0
LINE
  8
DIMENSIONS
  6
CONTINUOUS
 62
     7
 10
1630.0
 20
1954.9998
 11
1660.0
 21
1950.0
  0
LINE
  8
DIMENSIONS
  6
CONTINUOUS
 62
     7
 10
1630.0
 20
1945.0002
 11
1660.0
 21
1950.0
  0
LINE
  8
DIMENSIONS
  6
CONTINUOUS
 62
     7
 10
1660.0
 20
1690.0
 11
1660.0
 21
2043.75
  0
LINE
  8
DIMENSIONS
  6
CONTINUOUS
 62
     7
 10
1630.0
 20
2029.9998
 11
1660.0
 21
2025.0
  0
LINE
  8
DIMENSIONS
  6
CONTINUOUS
 62
     7
 10
1630.0
 20
2020.0002
 11
1660.0
 21
2025.0
  0
LINE
  8
DATA
  6
CONTINUOUS
 62
     7
 10
1992.0
 20
1632.7757
 11
2114.021
 21
1073.269
  0
LINE
  8
DATA
  6
CONTINUOUS
 62
     7
 10
2051.4459
 20
1571.3866
 11
2157.9876
 21
1082.8576
  0
LINE
  8
DATA
  6
CONTINUOUS
 62
     7
 10
2200.0
 20
1675.0
 11
2200.0
 21
1177.4205
  0
LINE
  8
DIMENSIONS
  6
CONTINUOUS
 62
     7
 10
2122.161
 20
1490.833098
 11
2089.335357
 21
1652.534906
  0
TEXT
  8
DIMENSIONS
  6
CONTINUOUS
 62
     7
 10
2118.368966
 20
1603.760928
 40
37.5
  1
165
 50
281.475173
  7
TTF_DEFAULT
  0
LINE
  8
DATA
  6
CONTINUOUS
 62
     7
 10
2010.6414
 20
1494.966
 11
2021.5363
 21
1497.3421
  0
LINE
  8
DATA
  6
CONTINUOUS
 62
     7
 10
2141.4278
 20
1158.7897
 11
2200.0
 21
1177.4205
  0
LINE
  8
DATA
  6
CONTINUOUS
 62
     7
 10
2020.0127
 20
1451.9953
 11
2030.9077
 21
1454.3714
  0
LINE
  8
DATA
  6
CONTINUOUS
 62
     7
 10
2023.1355
 20
1437.6764
 11
2034.0304
 21
1440.0524
  0
LINE
  8
DATA
  6
CONTINUOUS
 62
     7
 10
2029.597
 20
1408.048
 11
2040.492
 21
1410.4241
  0
LINE
  8
DATA
  6
CONTINUOUS
 62
     7
 10
2032.7198
 20
1393.7291
 11
2043.6148
 21
1396.1051
  0
LINE
  8
DATA
  6
CONTINUOUS
 62
     7
 10
2035.3476
 20
1381.6797
 11
2046.2426
 21
1384.0557
  0
LINE
  8
DATA
  6
CONTINUOUS
 62
     7
 10
2038.4704
 20
1367.3607
 11
2049.3654
 21
1369.7367
  0
LINE
  8
DATA
  6
CONTINUOUS
 62
     7
 10
2040.0333
 20
1360.1943
 11
2050.9282
 21
1362.5704
  0
LINE
  8
DATA
  6
CONTINUOUS
 62
     7
 10
2043.1561
 20
1345.8753
 11
2054.051
 21
1348.2514
  0
LINE
  8
DATA
  6
CONTINUOUS
 62
     7
 10
2044.719
 20
1338.709
 11
2055.6139
 21
1341.085
  0
LINE
  8
DATA
  6
CONTINUOUS
 62
     7
 10
2044.719
 20
1338.709
 11
2047.8417
 21
1324.39
  0
LINE
  8
DATA
  6
CONTINUOUS
 62
     7
 10
2040.0333
 20
1360.1943
 11
2043.1561
 21
1345.8753
  0
LINE
  8
DATA
  6
CONTINUOUS
 62
     7
 10
2035.3476
 20
1381.6797
 11
2038.4704
 21
1367.3607
  0
LINE
  8
DATA
  6
CONTINUOUS
 62
     7
 10
2029.597
 20
1408.048
 11
2032.7198
 21
1393.7291
  0
LINE
  8
DATA
  6
CONTINUOUS
 62
     7
 10
2020.0127
 20
1451.9953
 11
2023.1355
 21
1437.6764
  0
LINE
  8
DATA
  6
CONTINUOUS
 62
     7
 10
2015.327
 20
1473.4807
 11
2018.4498
 21
1459.1617
  0
LINE
  8
DATA
  6
CONTINUOUS
 62
     7
 10
2010.6414
 20
1494.966
 11
2013.7641
 21
1480.647
  0
LINE
  8
DATA
  6
CONTINUOUS
 62
     7
 10
2005.9557
 20
1516.4513
 11
2009.0785
 21
1502.1324
  0
LINE
  8
DATA
  6
CONTINUOUS
 62
     7
 10
2001.27
 20
1537.9367
 11
2004.3928
 21
1523.6177
  0
LINE
  8
DATA
  6
CONTINUOUS
 62
     7
 10
1996.5844
 20
1559.422
 11
1999.7071
 21
1545.1031
  0
LINE
  8
DATA
  6
CONTINUOUS
 62
     7
 10
2004.3928
 20
1523.6177
 11
2015.2878
 21
1525.9938
  0
LINE
  8
DATA
  6
CONTINUOUS
 62
     7
 10
2005.9557
 20
1516.4513
 11
2016.8507
 21
1518.8274
  0
LINE
  8
DATA
  6
CONTINUOUS
 62
     7
 10
2009.0785
 20
1502.1324
 11
2019.9734
 21
1504.5084
  0
LINE
  8
DATA
  6
CONTINUOUS
 62
     7
 10
2047.8417
 20
1324.39
 11
2058.7367
 21
1326.766
  0
LINE
  8
DATA
  6
CONTINUOUS
 62
     7
 10
2049.4046
 20
1317.2236
 11
2060.2996
 21
1319.5997
  0
LINE
  8
DATA
  6
CONTINUOUS
 62
     7
 10
2052.5274
 20
1302.9047
 11
2063.4224
 21
1305.2807
  0
LINE
  8
DATA
  6
CONTINUOUS
 62
     7
 10
2054.0903
 20
1295.7383
 11
2064.9852
 21
1298.1143
  0
LINE
  8
DATA
  6
CONTINUOUS
 62
     7
 10
2057.2131
 20
1281.4193
 11
2068.108
 21
1283.7954
  0
LINE
  8
DATA
  6
CONTINUOUS
 62
     7
 10
2058.776
 20
1274.2529
 11
2069.6709
 21
1276.629
  0
LINE
  8
DATA
  6
CONTINUOUS
 62
     7
 10
1996.5844
 20
1559.422
 11
2007.4793
 21
1561.7981
  0
LINE
  8
DATA
  6
CONTINUOUS
 62
     7
 10
1999.7071
 20
1545.1031
 11
2010.6021
 21
1547.4791
  0
LINE
  8
DATA
  6
CONTINUOUS
 62
     7
 10
2001.27
 20
1537.9367
 11
2012.165
 21
1540.3127
  0
LINE
  8
DATA
  6
CONTINUOUS
 62
     7
 10
2054.0903
 20
1295.7383
 11
2057.2131
 21
1281.4193
  0
LINE
  8
DATA
  6
CONTINUOUS
 62
     7
 10
2049.4046
 20
1317.2236
 11
2052.5274
 21
1302.9047
  0
LINE
  8
DATA
  6
CONTINUOUS
 62
     7
 10
2013.7641
 20
1480.647
 11
2024.6591
 21
1483.0231
  0
LINE
  8
DATA
  6
CONTINUOUS
 62
     7
 10
2015.327
 20
1473.4807
 11
2026.222
 21
1475.8567
  0
LINE
  8
DATA
  6
CONTINUOUS
 62
     7
 10
2018.4498
 20
1459.1617
 11
2029.3448
 21
1461.5377
  0
LINE
  8
DATA
  6
CONTINUOUS
 62
     7
 10
2200.0
 20
1227.4205
 11
2207.0
 21
1228.6548
  0
LINE
  8
DATA
  6
CONTINUOUS
 62
     7
 10
2200.0
 20
1257.4205
 11
2207.0
 21
1256.1862
  0
LINE
  8
DATA
  6
CONTINUOUS
 62
     7
 10
2207.0
 20
1256.1862
 11
2207.0
 21
1228.6548
  0
LINE
  8
DATA
  6
CONTINUOUS
 62
     7
 10
2207.0
 20
1565.4002
 11
2207.0
 21
1537.8688
  0
LINE
  8
DATA
  6
CONTINUOUS
 62
     7
 10
2200.0
 20
1566.6345
 11
2207.0
 21
1565.4002
  0
LINE
  8
DATA
  6
CONTINUOUS
 62
     7
 10
2200.0
 20
1536.6345
 11
2207.0
 21
1537.8688
  0
LINE
  8
DATA
  6
CONTINUOUS
 62
     7
 10
2058.776
 20
1274.2529
 11
2061.8987
 21
1259.934
  0
LINE
  8
DATA
  6
CONTINUOUS
 62
     7
 10
2071.2667
 20
1480.5015
 11
2200.0
 21
1506.6345
  0
LINE
  8
DATA
  6
CONTINUOUS
 62
     7
 10
2061.8987
 20
1259.934
 11
2072.7937
 21
1262.31
  0
LINE
  8
DIMENSIONS
  6
CONTINUOUS
 62
     7
 10
2121.09256
 20
1521.228105
 11
2122.161
 21
1490.833098
  0
LINE
  8
DIMENSIONS
  6
CONTINUOUS
 62
     7
 10
2111.292842
 20
1519.238752
 11
2122.161
 21
1490.833098
  0
LINE
  8
DIMENSIONS
  6
CONTINUOUS
 62
     7
 10
2088.800355
 20
1188.914012
 11
2030.178248
 21
1176.129307
  0
LINE
  8
DIMENSIONS
  6
CONTINUOUS
 62
     7
 10
2132.76697
 20
1198.502548
 11
2191.389076
 21
1211.287252
  0
LINE
  8
DIMENSIONS
  6
CONTINUOUS
 62
     7
 10
2088.59135
 20
1189.872366
 11
2092.795575
 21
1170.594604
  0
LINE
  8
DIMENSIONS
  6
CONTINUOUS
 62
     7
 10
2132.557965
 20
1199.460902
 11
2136.76219
 21
1180.18314
  0
LINE
  8
DIMENSIONS
  6
CONTINUOUS
 62
     7
 10
2060.554651
 20
1177.636679
 11
2088.800355
 21
1188.914012
  0
LINE
  8
DIMENSIONS
  6
CONTINUOUS
 62
     7
 10
2058.423952
 20
1187.40664
 11
2088.800355
 21
1188.914012
  0
LINE
  8
DIMENSIONS
  6
CONTINUOUS
 62
     7
 10
2163.143372
 20
1200.00992
 11
2132.76697
 21
1198.502548
  0
LINE
  8
DIMENSIONS
  6
CONTINUOUS
 62
     7
 10
2161.012673
 20
1209.77988
 11
2132.76697
 21
1198.502548
  0
TEXT
  8
DIMENSIONS
  6
CONTINUOUS
 62
     7
 10
2005.713264
 20
1183.60188
 40
37.5
  1
45
 50
12.302816
  7
TTF_DEFAULT
  0
LINE
  8
DATA
  6
CONTINUOUS
 62
     7
 10
1992.0
 20
1632.7757
 11
2200.0
 21
1675.0
  0
LINE
  8
DATA
  6
CONTINUOUS
 62
     7
 10
1987.0
 20
1603.3693
 11
1990.1228
 21
1589.0504
  0
LINE
  8
DATA
  6
CONTINUOUS
 62
     7
 10
1990.1228
 20
1589.0504
 11
2001.0178
 21
1591.4264
  0
LINE
  8
DATA
  6
CONTINUOUS
 62
     7
 10
1987.0
 20
1603.3693
 11
1997.895
 21
1605.7454
  0
LINE
  8
DIMENSIONS
  6
CONTINUOUS
 62
     7
 10
1987.0
 20
1800.0
 11
1927.0
 21
1800.0
  0
LINE
  8
DIMENSIONS
  6
CONTINUOUS
 62
     7
 10
1992.0
 20
1800.0
 11
2052.0
 21
1800.0
  0
LINE
  8
DIMENSIONS
  6
CONTINUOUS
 62
     7
 10
1987.0
 20
1618.3693
 11
1987.0
 21
1818.75
  0
LINE
  8
DIMENSIONS
  6
CONTINUOUS
 62
     7
 10
1957.0
 20
1795.0002
 11
1987.0
 21
1800.0
  0
LINE
  8
DIMENSIONS
  6
CONTINUOUS
 62
     7
 10
1957.0
 20
1804.9998
 11
1987.0
 21
1800.0
  0
LINE
  8
DIMENSIONS
  6
CONTINUOUS
 62
     7
 10
2200.0
 20
1750.0
 11
2140.0
 21
1750.0
  0
LINE
  8
DIMENSIONS
  6
CONTINUOUS
 62
     7
 10
2200.0
 20
1690.0
 11
2200.0
 21
1768.75
  0
LINE
  8
DIMENSIONS
  6
CONTINUOUS
 62
     7
 10
2170.0
 20
1745.0002
 11
2200.0
 21
1750.0
  0
LINE
  8
DIMENSIONS
  6
CONTINUOUS
 62
     7
 10
2170.0
 20
1754.9998
 11
2200.0
 21
1750.0
  0
LINE
  8
DIMENSIONS
  6
CONTINUOUS
 62
     7
 10
2237.0
 20
1745.0002
 11
2207.0
 21
1750.0
  0
LINE
  8
DIMENSIONS
  6
CONTINUOUS
 62
     7
 10
2237.0
 20
1754.9998
 11
2207.0
 21
1750.0
  0
TEXT
  8
DIMENSIONS
  6
CONTINUOUS
 62
     7
 10
1920.75
 20
1818.75
 40
37.5
  1
5
  7
TTF_DEFAULT
  0
LINE
  8
DIMENSIONS
  6
CONTINUOUS
 62
     7
 10
2100.203515
 20
1624.129252
 11
2089.335357
 21
1652.534906
  0
LINE
  8
DIMENSIONS
  6
CONTINUOUS
 62
     7
 10
2090.403797
 20
1622.139899
 11
2089.335357
 21
1652.534906
  0
LINE
  8
DIMENSIONS
  6
CONTINUOUS
 62
     7
 10
2207.0
 20
1800.0
 11
1992.0
 21
1800.0
  0
LINE
  8
DIMENSIONS
  6
CONTINUOUS
 62
     7
 10
2207.0
 20
1580.4002
 11
2207.0
 21
1818.75
  0
LINE
  8
DIMENSIONS
  6
CONTINUOUS
 62
     7
 10
1992.0
 20
1647.7757
 11
1992.0
 21
1818.75
  0
LINE
  8
DIMENSIONS
  6
CONTINUOUS
 62
     7
 10
2177.0
 20
1804.9998
 11
2207.0
 21
1800.0
  0
LINE
  8
DIMENSIONS
  6
CONTINUOUS
 62
     7
 10
2177.0
 20
1795.0002
 11
2207.0
 21
1800.0
  0
LINE
  8
DIMENSIONS
  6
CONTINUOUS
 62
     7
 10
2022.0
 20
1804.9998
 11
1992.0
 21
1800.0
  0
LINE
  8
DIMENSIONS
  6
CONTINUOUS
 62
     7
 10
2022.0
 20
1795.0002
 11
1992.0
 21
1800.0
  0
TEXT
  8
DIMENSIONS
  6
CONTINUOUS
 62
     7
 10
2070.575081
 20
1818.75
 40
37.5
  1
215
  7
TTF_DEFAULT
  0
LINE
  8
DIMENSIONS
  6
CONTINUOUS
 62
     7
 10
2300.0
 20
999.999918
 11
2300.0
 21
1675.0
  0
LINE
  8
DIMENSIONS
  6
CONTINUOUS
 62
     7
 10
2304.9998
 20
1029.999918
 11
2300.0
 21
999.999918
  0
LINE
  8
DIMENSIONS
  6
CONTINUOUS
 62
     7
 10
2295.0002
 20
1029.999918
 11
2300.0
 21
999.999918
  0
TEXT
  8
HIBINO-BASE
  6
CONTINUOUS
 62
     7
 10
2380.950394
 20
128.8698
 40
60.0
  1
ヒビノ株式会社
  7
TTF_DEFAULT
  0
TEXT
  8
HIBINO-BASE
  6
CONTINUOUS
 62
     7
 10
2595.0
 20
337.5
 40
37.5
  1
DRAWING NO.
  7
TTF_DEFAULT
  0
TEXT
  8
DATA
  6
CONTINUOUS
 62
     7
 10
2287.5
 20
428.125
 40
45.0
  1
DELTA DLX
  7
TTF_DEFAULT
  0
TEXT
  8
HIBINO-BASE
  6
CONTINUOUS
 62
     7
 10
2407.5
 20
337.5
 40
37.5
  1
CHECK
  7
TTF_DEFAULT
  0
LINE
  8
HIBINO-BASE
  6
CONTINUOUS
 62
     7
 10
2587.5
 20
375.0
 11
2587.5
 21
225.0
  0
LINE
  8
HIBINO-BASE
  6
CONTINUOUS
 62
     7
 10
2400.0
 20
225.0
 11
2400.0
 21
375.0
  0
TEXT
  8
DATA
  6
CONTINUOUS
 62
     7
 10
2287.5
 20
496.875
 40
45.0
  1
Soundcraft
  7
TTF_DEFAULT
  0
LINE
  8
DIMENSIONS
  6
CONTINUOUS
 62
     7
 10
2304.9998
 20
1645.0
 11
2300.0
 21
1675.0
  0
LINE
  8
DIMENSIONS
  6
CONTINUOUS
 62
     7
 10
2295.0002
 20
1645.0
 11
2300.0
 21
1675.0
  0
TEXT
  8
DIMENSIONS
  6
CONTINUOUS
 62
     7
 10
2285.75
 20
1768.75
 40
37.5
  1
7
  7
TTF_DEFAULT
  0
LINE
  8
SPEC
  6
CONTINUOUS
 62
     7
 10
2387.5
 20
2385.9375
 11
2387.5
 21
3975.0
  0
ENDSEC
  0
EOF
